  0
SECTION
  2
HEADER
  9
$LIMMIN
 10
0.000000
 20
0.000000
  9
$LIMMAX
 10
200.888889
 20
285.000000
  9
$EXTMIN
 10
0.000000
 20
0.000000
  9
$EXTMAX
 10
200.888889
 20
285.000000
  9
$ANGBASE
 50
0.000000
  9
$ANGDIR
 70
0
  9
$INSUNITS
 70
4
  9
$DIMALT
 70
4
  9
$DIMLUNIT
 70
2
  9
$DIMASZ
 40
3.000000
  9
$DIMTXT
 40
5.000000
  9
$DIMRND
 40
0.001000
  9
$DIMEXE
 40
2.000000
  9
$DIMEXO
 40
2.000000
  9
$DIMAUNIT
 70
0
  9
$DIMADEC
 70
2
  9
$GRIDUNIT
 10
0.000100
 20
0.000100
  9
$PLIMMIN
 10
0.000000
 20
0.000000
  9
$PLIMMAX
 10
210.000000
 20
297.000000
  9
$PSVPSCALE
 40
1.000000
  0
ENDSEC
  0
SECTION
  2
TABLES
  0
TABLE
  2
LTYPE
 70
     1
  0
LTYPE
  2
CONTINUOUS
 70
    64
  3
Ausgez
 72
    65
 73
  0
 40
0.000000
  0
ENDTAB
  0
TABLE
  2
LAYER
 70
     1
  0
LAYER
  2
default
 70
    64
 62
0
  6
CONTINUOUS
  0
ENDTAB
  0
ENDSEC
  0
SECTION
  2
BLOCKS
  0
ENDSEC
  0
SECTION
  2
ENTITIES
  0
TEXT
  8
default
  6
CONTINUOUS
 10
5.000000
 20
9.400000
 40
4.000000
 50
0.000000
 72
0
  7
Normal#0.400000#2.400000
  1
(c) 2003 Frederic Pasteleurs <askarel at tiscali dot be>
 39
0
 62
0
  0
TEXT
  8
default
  6
CONTINUOUS
 10
5.000000
 20
3.800000
 40
4.000000
 50
0.000000
 72
0
  7
Normal#0.400000#2.400000
  1
Please copy freely
 39
0
 62
0
  0
POINT
  8
default
  6
CONTINUOUS
 10
185.000000
 20
230.000000
 39
0
 62
0
  0
POINT
  8
default
  6
CONTINUOUS
 10
190.000000
 20
230.000000
 39
0
 62
0
  0
POINT
  8
default
  6
CONTINUOUS
 10
185.000000
 20
225.000000
 39
0
 62
0
  0
POINT
  8
default
  6
CONTINUOUS
 10
190.000000
 20
225.000000
 39
0
 62
0
  0
POINT
  8
default
  6
CONTINUOUS
 10
185.000000
 20
220.000000
 39
0
 62
0
  0
POINT
  8
default
  6
CONTINUOUS
 10
190.000000
 20
220.000000
 39
0
 62
0
  0
POINT
  8
default
  6
CONTINUOUS
 10
185.000000
 20
215.000000
 39
0
 62
0
  0
POINT
  8
default
  6
CONTINUOUS
 10
190.000000
 20
215.000000
 39
0
 62
0
  0
POINT
  8
default
  6
CONTINUOUS
 10
185.000000
 20
210.000000
 39
0
 62
0
  0
POINT
  8
default
  6
CONTINUOUS
 10
190.000000
 20
210.000000
 39
0
 62
0
  0
POINT
  8
default
  6
CONTINUOUS
 10
185.000000
 20
205.000000
 39
0
 62
0
  0
POINT
  8
default
  6
CONTINUOUS
 10
190.000000
 20
205.000000
 39
0
 62
0
  0
POINT
  8
default
  6
CONTINUOUS
 10
185.000000
 20
200.000000
 39
0
 62
0
  0
POINT
  8
default
  6
CONTINUOUS
 10
190.000000
 20
200.000000
 39
0
 62
0
  0
LINE
  8
default
  6
CONTINUOUS
 10
180.000000
 20
235.000000
 11
195.000000
 21
235.000000
 39
0
 62
0
  0
LINE
  8
default
  6
CONTINUOUS
 10
195.000000
 20
235.000000
 11
195.000000
 21
195.000000
 39
0
 62
0
  0
LINE
  8
default
  6
CONTINUOUS
 10
195.000000
 20
195.000000
 11
180.000000
 21
195.000000
 39
0
 62
0
  0
LINE
  8
default
  6
CONTINUOUS
 10
180.000000
 20
195.000000
 11
180.000000
 21
235.000000
 39
0
 62
0
  0
TEXT
  8
default
  6
CONTINUOUS
 10
190.000000
 20
245.000000
 40
5.000000
 50
0.000000
 72
1
  7
Normal#0.500000#3.000000
  1
JTAG
 39
0
 62
0
  0
TEXT
  8
default
  6
CONTINUOUS
 10
190.000000
 20
238.000000
 40
5.000000
 50
0.000000
 72
1
  7
Normal#0.500000#3.000000
  1
connector
 39
0
 62
0
  0
TEXT
  8
default
  6
CONTINUOUS
 10
105.000000
 20
255.000000
 40
5.000000
 50
0.000000
 72
1
  7
Normal#0.500000#3.000000
  1
74HCT244
 39
0
 62
0
  0
TEXT
  8
default
  6
CONTINUOUS
 10
95.000000
 20
240.000000
 40
5.000000
 50
0.000000
 72
1
  7
Normal#0.500000#3.000000
  1
1
 39
0
 62
0
  0
TEXT
  8
default
  6
CONTINUOUS
 10
95.000000
 20
233.000000
 40
5.000000
 50
0.000000
 72
1
  7
Normal#0.500000#3.000000
  1
2
 39
0
 62
0
  0
TEXT
  8
default
  6
CONTINUOUS
 10
95.000000
 20
226.000000
 40
5.000000
 50
0.000000
 72
1
  7
Normal#0.500000#3.000000
  1
3
 39
0
 62
0
  0
TEXT
  8
default
  6
CONTINUOUS
 10
95.000000
 20
219.000000
 40
5.000000
 50
0.000000
 72
1
  7
Normal#0.500000#3.000000
  1
4
 39
0
 62
0
  0
TEXT
  8
default
  6
CONTINUOUS
 10
95.000000
 20
212.000000
 40
5.000000
 50
0.000000
 72
1
  7
Normal#0.500000#3.000000
  1
5
 39
0
 62
0
  0
TEXT
  8
default
  6
CONTINUOUS
 10
95.000000
 20
205.000000
 40
5.000000
 50
0.000000
 72
1
  7
Normal#0.500000#3.000000
  1
6
 39
0
 62
0
  0
TEXT
  8
default
  6
CONTINUOUS
 10
95.000000
 20
198.000000
 40
5.000000
 50
0.000000
 72
1
  7
Normal#0.500000#3.000000
  1
7
 39
0
 62
0
  0
TEXT
  8
default
  6
CONTINUOUS
 10
95.000000
 20
191.000000
 40
5.000000
 50
0.000000
 72
1
  7
Normal#0.500000#3.000000
  1
8
 39
0
 62
0
  0
TEXT
  8
default
  6
CONTINUOUS
 10
95.000000
 20
184.000000
 40
5.000000
 50
0.000000
 72
1
  7
Normal#0.500000#3.000000
  1
9
 39
0
 62
0
  0
TEXT
  8
default
  6
CONTINUOUS
 10
95.000000
 20
177.000000
 40
5.000000
 50
0.000000
 72
1
  7
Normal#0.500000#3.000000
  1
10
 39
0
 62
0
  0
TEXT
  8
default
  6
CONTINUOUS
 10
115.000000
 20
240.000000
 40
5.000000
 50
0.000000
 72
1
  7
Normal#0.500000#3.000000
  1
20
 39
0
 62
0
  0
TEXT
  8
default
  6
CONTINUOUS
 10
115.000000
 20
233.000000
 40
5.000000
 50
0.000000
 72
1
  7
Normal#0.500000#3.000000
  1
19
 39
0
 62
0
  0
TEXT
  8
default
  6
CONTINUOUS
 10
115.000000
 20
226.000000
 40
5.000000
 50
0.000000
 72
1
  7
Normal#0.500000#3.000000
  1
18
 39
0
 62
0
  0
TEXT
  8
default
  6
CONTINUOUS
 10
115.000000
 20
219.000000
 40
5.000000
 50
0.000000
 72
1
  7
Normal#0.500000#3.000000
  1
17
 39
0
 62
0
  0
TEXT
  8
default
  6
CONTINUOUS
 10
115.000000
 20
212.000000
 40
5.000000
 50
0.000000
 72
1
  7
Normal#0.500000#3.000000
  1
16
 39
0
 62
0
  0
TEXT
  8
default
  6
CONTINUOUS
 10
115.000000
 20
205.000000
 40
5.000000
 50
0.000000
 72
1
  7
Normal#0.500000#3.000000
  1
15
 39
0
 62
0
  0
TEXT
  8
default
  6
CONTINUOUS
 10
115.000000
 20
198.000000
 40
5.000000
 50
0.000000
 72
1
  7
Normal#0.500000#3.000000
  1
14
 39
0
 62
0
  0
TEXT
  8
default
  6
CONTINUOUS
 10
115.000000
 20
191.000000
 40
5.000000
 50
0.000000
 72
1
  7
Normal#0.500000#3.000000
  1
13
 39
0
 62
0
  0
TEXT
  8
default
  6
CONTINUOUS
 10
115.000000
 20
184.000000
 40
5.000000
 50
0.000000
 72
1
  7
Normal#0.500000#3.000000
  1
12
 39
0
 62
0
  0
TEXT
  8
default
  6
CONTINUOUS
 10
115.000000
 20
177.000000
 40
5.000000
 50
0.000000
 72
1
  7
Normal#0.500000#3.000000
  1
11
 39
0
 62
0
  0
LINE
  8
default
  6
CONTINUOUS
 10
90.000000
 20
250.000000
 11
120.000000
 21
250.000000
 39
0
 62
0
  0
LINE
  8
default
  6
CONTINUOUS
 10
120.000000
 20
250.000000
 11
120.000000
 21
170.000000
 39
0
 62
0
  0
LINE
  8
default
  6
CONTINUOUS
 10
120.000000
 20
170.000000
 11
90.000000
 21
170.000000
 39
0
 62
0
  0
LINE
  8
default
  6
CONTINUOUS
 10
90.000000
 20
170.000000
 11
90.000000
 21
250.000000
 39
0
 62
0
  0
ARC
  8
default
  6
CONTINUOUS
 10
105.000000
 20
250.000000
 40
5.000000
 50
180.000000
 51
0.000000
 39
0
 62
0
  0
TEXT
  8
default
  6
CONTINUOUS
 10
190.000000
 20
185.000000
 40
5.000000
 50
0.000000
 72
1
  7
Normal#0.500000#3.000000
  1
14 pin
 39
0
 62
0
  0
TEXT
  8
default
  6
CONTINUOUS
 10
190.000000
 20
178.000000
 40
5.000000
 50
0.000000
 72
1
  7
Normal#0.500000#3.000000
  1
header
 39
0
 62
0
  0
TEXT
  8
default
  6
CONTINUOUS
 10
20.000000
 20
265.000000
 40
5.000000
 50
0.000000
 72
1
  7
Normal#0.500000#3.000000
  1
HOST
 39
0
 62
0
  0
TEXT
  8
default
  6
CONTINUOUS
 10
20.000000
 20
258.000000
 40
5.000000
 50
0.000000
 72
1
  7
Normal#0.500000#3.000000
  1
connector
 39
0
 62
0
  0
LINE
  8
default
  6
CONTINUOUS
 10
129.841912
 20
233.496324
 11
149.841912
 21
233.496324
 39
0
 62
0
  0
LINE
  8
default
  6
CONTINUOUS
 10
149.841912
 20
233.496324
 11
149.841912
 21
223.496324
 39
0
 62
0
  0
LINE
  8
default
  6
CONTINUOUS
 10
149.841912
 20
223.496324
 11
129.841912
 21
223.496324
 39
0
 62
0
  0
LINE
  8
default
  6
CONTINUOUS
 10
129.841912
 20
223.496324
 11
129.841912
 21
233.496324
 39
0
 62
0
  0
LINE
  8
default
  6
CONTINUOUS
 10
124.841912
 20
228.496324
 11
129.841912
 21
228.496324
 39
0
 62
0
  0
LINE
  8
default
  6
CONTINUOUS
 10
149.841912
 20
228.496324
 11
154.841912
 21
228.496324
 39
0
 62
0
  0
LINE
  8
default
  6
CONTINUOUS
 10
129.841912
 20
218.573529
 11
149.841912
 21
218.573529
 39
0
 62
0
  0
LINE
  8
default
  6
CONTINUOUS
 10
149.841912
 20
218.573529
 11
149.841912
 21
208.573529
 39
0
 62
0
  0
LINE
  8
default
  6
CONTINUOUS
 10
149.841912
 20
208.573529
 11
129.841912
 21
208.573529
 39
0
 62
0
  0
LINE
  8
default
  6
CONTINUOUS
 10
129.841912
 20
208.573529
 11
129.841912
 21
218.573529
 39
0
 62
0
  0
LINE
  8
default
  6
CONTINUOUS
 10
124.841912
 20
213.573529
 11
129.841912
 21
213.573529
 39
0
 62
0
  0
LINE
  8
default
  6
CONTINUOUS
 10
149.841912
 20
213.573529
 11
154.841912
 21
213.573529
 39
0
 62
0
  0
LINE
  8
default
  6
CONTINUOUS
 10
120.110294
 20
213.573529
 11
128.117647
 21
213.573529
 39
0
 62
0
  0
TEXT
  8
default
  6
CONTINUOUS
 10
136.488971
 20
225.584559
 40
5.000000
 50
0.000000
 72
1
  7
Normal#0.500000#3.000000
  1
51
 39
0
 62
0
  0
TEXT
  8
default
  6
CONTINUOUS
 10
136.852941
 20
211.025735
 40
5.000000
 50
0.000000
 72
1
  7
Normal#0.500000#3.000000
  1
51
 39
0
 62
0
  0
POINT
  8
default
  6
CONTINUOUS
 10
185.000000
 20
230.000000
 39
0
 62
0
  0
POINT
  8
default
  6
CONTINUOUS
 10
185.000000
 20
225.000000
 39
0
 62
0
  0
POINT
  8
default
  6
CONTINUOUS
 10
185.000000
 20
220.000000
 39
0
 62
0
  0
POINT
  8
default
  6
CONTINUOUS
 10
185.000000
 20
215.000000
 39
0
 62
0
  0
POINT
  8
default
  6
CONTINUOUS
 10
185.000000
 20
210.000000
 39
0
 62
0
  0
POINT
  8
default
  6
CONTINUOUS
 10
185.000000
 20
210.000000
 39
0
 62
0
  0
LINE
  8
default
  6
CONTINUOUS
 10
185.000000
 20
215.000000
 11
155.000000
 21
215.000000
 39
0
 62
0
  0
LINE
  8
default
  6
CONTINUOUS
 10
184.897059
 20
219.397059
 11
155.051471
 21
219.397059
 39
0
 62
0
  0
LINE
  8
default
  6
CONTINUOUS
 10
185.000000
 20
210.000000
 11
155.000000
 21
210.000000
 39
0
 62
0
  0
LINE
  8
default
  6
CONTINUOUS
 10
155.000000
 20
210.000000
 11
155.000000
 21
200.000000
 39
0
 62
0
  0
LINE
  8
default
  6
CONTINUOUS
 10
185.000000
 20
205.000000
 11
160.000000
 21
205.000000
 39
0
 62
0
  0
LINE
  8
default
  6
CONTINUOUS
 10
160.000000
 20
205.000000
 11
160.000000
 21
165.000000
 39
0
 62
0
  0
LINE
  8
default
  6
CONTINUOUS
 10
160.000000
 20
165.000000
 11
75.000000
 21
165.000000
 39
0
 62
0
  0
LINE
  8
default
  6
CONTINUOUS
 10
99.904412
 20
160.632353
 11
119.904412
 21
160.632353
 39
0
 62
0
  0
LINE
  8
default
  6
CONTINUOUS
 10
119.904412
 20
160.632353
 11
119.904412
 21
150.632353
 39
0
 62
0
  0
LINE
  8
default
  6
CONTINUOUS
 10
119.904412
 20
150.632353
 11
99.904412
 21
150.632353
 39
0
 62
0
  0
LINE
  8
default
  6
CONTINUOUS
 10
99.904412
 20
150.632353
 11
99.904412
 21
160.632353
 39
0
 62
0
  0
TEXT
  8
default
  6
CONTINUOUS
 10
106.915441
 20
153.084559
 40
5.000000
 50
0.000000
 72
1
  7
Normal#0.500000#3.000000
  1
51
 39
0
 62
0
  0
LINE
  8
default
  6
CONTINUOUS
 10
120.000000
 20
185.000000
 11
130.000000
 21
185.000000
 39
0
 62
0
  0
LINE
  8
default
  6
CONTINUOUS
 10
130.000000
 20
185.000000
 11
130.000000
 21
155.000000
 39
0
 62
0
  0
LINE
  8
default
  6
CONTINUOUS
 10
130.000000
 20
155.000000
 11
120.000000
 21
155.000000
 39
0
 62
0
  0
LINE
  8
default
  6
CONTINUOUS
 10
164.801471
 20
165.176471
 11
164.801471
 21
185.176471
 39
0
 62
0
  0
LINE
  8
default
  6
CONTINUOUS
 10
164.801471
 20
185.176471
 11
174.801471
 21
185.176471
 39
0
 62
0
  0
LINE
  8
default
  6
CONTINUOUS
 10
174.801471
 20
185.176471
 11
174.801471
 21
165.176471
 39
0
 62
0
  0
LINE
  8
default
  6
CONTINUOUS
 10
174.801471
 20
165.176471
 11
164.801471
 21
165.176471
 39
0
 62
0
  0
TEXT
  8
default
  6
CONTINUOUS
 10
172.349265
 20
172.187500
 40
5.000000
 50
90.000000
 72
1
  7
Normal#0.500000#3.000000
  1
51
 39
0
 62
0
  0
LINE
  8
default
  6
CONTINUOUS
 10
170.000000
 20
185.000000
 11
170.000000
 21
225.000000
 39
0
 62
0
  0
LINE
  8
default
  6
CONTINUOUS
 10
170.000000
 20
225.000000
 11
185.000000
 21
225.000000
 39
0
 62
0
  0
LINE
  8
default
  6
CONTINUOUS
 10
165.000000
 20
145.000000
 11
165.000000
 21
135.000000
 39
0
 62
0
  0
LINE
  8
default
  6
CONTINUOUS
 10
165.000000
 20
140.000000
 11
170.000000
 21
145.000000
 39
0
 62
0
  0
LINE
  8
default
  6
CONTINUOUS
 10
165.000000
 20
140.000000
 11
170.000000
 21
135.000000
 39
0
 62
0
  0
LINE
  8
default
  6
CONTINUOUS
 10
168.500000
 20
136.500000
 11
168.500000
 21
138.500000
 39
0
 62
0
  0
LINE
  8
default
  6
CONTINUOUS
 10
168.500000
 20
136.500000
 11
167.000000
 21
136.500000
 39
0
 62
0
  0
LINE
  8
default
  6
CONTINUOUS
 10
170.000000
 20
165.000000
 11
170.000000
 21
145.000000
 39
0
 62
0
  0
LINE
  8
default
  6
CONTINUOUS
 10
165.000000
 20
140.000000
 11
145.000000
 21
140.000000
 39
0
 62
0
  0
LINE
  8
default
  6
CONTINUOUS
 10
99.904412
 20
145.632353
 11
119.904412
 21
145.632353
 39
0
 62
0
  0
LINE
  8
default
  6
CONTINUOUS
 10
119.904412
 20
145.632353
 11
119.904412
 21
135.632353
 39
0
 62
0
  0
LINE
  8
default
  6
CONTINUOUS
 10
119.904412
 20
135.632353
 11
99.904412
 21
135.632353
 39
0
 62
0
  0
LINE
  8
default
  6
CONTINUOUS
 10
99.904412
 20
135.632353
 11
99.904412
 21
145.632353
 39
0
 62
0
  0
LINE
  8
default
  6
CONTINUOUS
 10
134.367647
 20
114.904412
 11
134.367647
 21
134.904412
 39
0
 62
0
  0
LINE
  8
default
  6
CONTINUOUS
 10
134.367647
 20
134.904412
 11
144.367647
 21
134.904412
 39
0
 62
0
  0
LINE
  8
default
  6
CONTINUOUS
 10
144.367647
 20
134.904412
 11
144.367647
 21
114.904412
 39
0
 62
0
  0
LINE
  8
default
  6
CONTINUOUS
 10
144.367647
 20
114.904412
 11
134.367647
 21
114.904412
 39
0
 62
0
  0
TEXT
  8
default
  6
CONTINUOUS
 10
106.915441
 20
138.084559
 40
5.000000
 50
0.000000
 72
1
  7
Normal#0.500000#3.000000
  1
10k
 39
0
 62
0
  0
TEXT
  8
default
  6
CONTINUOUS
 10
141.915441
 20
121.915441
 40
5.000000
 50
90.000000
 72
1
  7
Normal#0.500000#3.000000
  1
47k
 39
0
 62
0
  0
LINE
  8
default
  6
CONTINUOUS
 10
120.000000
 20
140.000000
 11
150.000000
 21
140.000000
 39
0
 62
0
  0
LINE
  8
default
  6
CONTINUOUS
 10
140.000000
 20
135.000000
 11
140.000000
 21
140.000000
 39
0
 62
0
  0
LINE
  8
default
  6
CONTINUOUS
 10
170.000000
 20
135.000000
 11
170.000000
 21
105.000000
 39
0
 62
0
  0
LINE
  8
default
  6
CONTINUOUS
 10
190.000000
 20
230.000000
 11
200.000000
 21
230.000000
 39
0
 62
0
  0
LINE
  8
default
  6
CONTINUOUS
 10
200.000000
 20
230.000000
 11
200.000000
 21
105.000000
 39
0
 62
0
  0
LINE
  8
default
  6
CONTINUOUS
 10
140.000000
 20
115.000000
 11
140.000000
 21
105.000000
 39
0
 62
0
  0
LINE
  8
default
  6
CONTINUOUS
 10
190.000000
 20
225.000000
 11
200.000000
 21
225.000000
 39
0
 62
0
  0
LINE
  8
default
  6
CONTINUOUS
 10
90.000000
 20
180.000000
 11
85.000000
 21
180.000000
 39
0
 62
0
  0
LINE
  8
default
  6
CONTINUOUS
 10
85.000000
 20
180.000000
 11
85.000000
 21
105.000000
 39
0
 62
0
  0
LINE
  8
default
  6
CONTINUOUS
 10
85.000000
 20
180.000000
 11
84.805147
 21
242.691176
 39
0
 62
0
  0
LINE
  8
default
  6
CONTINUOUS
 10
90.264706
 20
220.488971
 11
45.132353
 21
220.488971
 39
0
 62
0
  0
LINE
  8
default
  6
CONTINUOUS
 10
100.000000
 20
155.000000
 11
45.000000
 21
155.000000
 39
0
 62
0
  0
LINE
  8
default
  6
CONTINUOUS
 10
100.000000
 20
140.000000
 11
45.000000
 21
140.000000
 39
0
 62
0
  0
LINE
  8
default
  6
CONTINUOUS
 10
80.000000
 20
250.000000
 11
65.000000
 21
250.000000
 39
0
 62
0
  0
LINE
  8
default
  6
CONTINUOUS
 10
65.000000
 20
250.000000
 11
65.000000
 21
260.000000
 39
0
 62
0
  0
LINE
  8
default
  6
CONTINUOUS
 10
80.000000
 20
260.000000
 11
80.000000
 21
250.000000
 39
0
 62
0
  0
LINE
  8
default
  6
CONTINUOUS
 10
70.000000
 20
255.000000
 11
75.000000
 21
255.000000
 39
0
 62
0
  0
LINE
  8
default
  6
CONTINUOUS
 10
75.000000
 20
255.000000
 11
75.000000
 21
260.000000
 39
0
 62
0
  0
LINE
  8
default
  6
CONTINUOUS
 10
75.000000
 20
260.000000
 11
70.000000
 21
260.000000
 39
0
 62
0
  0
LINE
  8
default
  6
CONTINUOUS
 10
70.000000
 20
260.000000
 11
70.000000
 21
255.000000
 39
0
 62
0
  0
LINE
  8
default
  6
CONTINUOUS
 10
72.500000
 20
250.000000
 11
72.500000
 21
242.500000
 39
0
 62
0
  0
LINE
  8
default
  6
CONTINUOUS
 10
72.500000
 20
242.500000
 11
90.000000
 21
242.500000
 39
0
 62
0
  0
LINE
  8
default
  6
CONTINUOUS
 10
125.000000
 20
228.500000
 11
120.000000
 21
228.500000
 39
0
 62
0
  0
LINE
  8
default
  6
CONTINUOUS
 10
155.000000
 20
213.500000
 11
155.000000
 21
215.000000
 39
0
 62
0
  0
LINE
  8
default
  6
CONTINUOUS
 10
155.000000
 20
219.500000
 11
155.000000
 21
228.500000
 39
0
 62
0
  0
LINE
  8
default
  6
CONTINUOUS
 10
129.950721
 20
205.085178
 11
149.950721
 21
205.085178
 39
0
 62
0
  0
LINE
  8
default
  6
CONTINUOUS
 10
149.950721
 20
205.085178
 11
149.950721
 21
195.085178
 39
0
 62
0
  0
LINE
  8
default
  6
CONTINUOUS
 10
149.950721
 20
195.085178
 11
129.950721
 21
195.085178
 39
0
 62
0
  0
LINE
  8
default
  6
CONTINUOUS
 10
129.950721
 20
195.085178
 11
129.950721
 21
205.085178
 39
0
 62
0
  0
LINE
  8
default
  6
CONTINUOUS
 10
124.950721
 20
200.085178
 11
129.950721
 21
200.085178
 39
0
 62
0
  0
LINE
  8
default
  6
CONTINUOUS
 10
149.950721
 20
200.085178
 11
154.950721
 21
200.085178
 39
0
 62
0
  0
TEXT
  8
default
  6
CONTINUOUS
 10
136.961750
 20
197.537384
 40
5.000000
 50
0.000000
 72
1
  7
Normal#0.500000#3.000000
  1
51
 39
0
 62
0
  0
LINE
  8
default
  6
CONTINUOUS
 10
125.000000
 20
200.000000
 11
120.000000
 21
200.000000
 39
0
 62
0
  0
LINE
  8
default
  6
CONTINUOUS
 10
75.000000
 20
165.000000
 11
75.000000
 21
193.000000
 39
0
 62
0
  0
LINE
  8
default
  6
CONTINUOUS
 10
75.000000
 20
193.000000
 11
90.000000
 21
193.000000
 39
0
 62
0
  0
TEXT
  8
default
  6
CONTINUOUS
 10
20.000000
 20
90.000000
 40
5.000000
 50
0.000000
 72
1
  7
Normal#0.500000#3.000000
  1
Male
 39
0
 62
0
  0
TEXT
  8
default
  6
CONTINUOUS
 10
20.000000
 20
83.000000
 40
5.000000
 50
0.000000
 72
1
  7
Normal#0.500000#3.000000
  1
SUB D25
 39
0
 62
0
  0
LINE
  8
default
  6
CONTINUOUS
 10
45.000000
 20
260.000000
 11
55.000000
 21
260.000000
 39
0
 62
0
  0
LINE
  8
default
  6
CONTINUOUS
 10
55.000000
 20
255.000000
 11
45.000000
 21
255.000000
 39
0
 62
0
  0
LINE
  8
default
  6
CONTINUOUS
 10
50.000000
 20
260.000000
 11
50.000000
 21
270.000000
 39
0
 62
0
  0
LINE
  8
default
  6
CONTINUOUS
 10
50.000000
 20
270.000000
 11
175.000000
 21
270.000000
 39
0
 62
0
  0
LINE
  8
default
  6
CONTINUOUS
 10
175.000000
 20
270.000000
 11
175.000000
 21
230.000000
 39
0
 62
0
  0
LINE
  8
default
  6
CONTINUOUS
 10
175.000000
 20
230.000000
 11
185.000000
 21
230.000000
 39
0
 62
0
  0
LINE
  8
default
  6
CONTINUOUS
 10
120.000000
 20
235.000000
 11
125.000000
 21
235.000000
 39
0
 62
0
  0
LINE
  8
default
  6
CONTINUOUS
 10
125.000000
 20
235.000000
 11
125.000000
 21
270.000000
 39
0
 62
0
  0
LINE
  8
default
  6
CONTINUOUS
 10
72.500000
 20
260.000000
 11
72.500000
 21
270.000000
 39
0
 62
0
  0
LINE
  8
default
  6
CONTINUOUS
 10
72.500000
 20
242.500000
 11
50.000000
 21
242.500000
 39
0
 62
0
  0
LINE
  8
default
  6
CONTINUOUS
 10
50.000000
 20
242.500000
 11
50.000000
 21
255.000000
 39
0
 62
0
  0
LINE
  8
default
  6
CONTINUOUS
 10
120.000000
 20
242.500000
 11
125.000000
 21
242.500000
 39
0
 62
0
  0
TEXT
  8
default
  6
CONTINUOUS
 10
180.000000
 20
135.000000
 40
5.000000
 50
0.000000
 72
1
  7
Normal#0.500000#3.000000
  1
BC 546
 39
0
 62
0
  0
TEXT
  8
default
  6
CONTINUOUS
 10
75.000000
 20
273.000000
 40
5.000000
 50
0.000000
 72
1
  7
Normal#0.500000#3.000000
  1
16 V
 39
0
 62
0
  0
TEXT
  8
default
  6
CONTINUOUS
 10
50.000000
 20
275.000000
 40
5.000000
 50
0.000000
 72
1
  7
Normal#0.500000#3.000000
  1
200 nF
 39
0
 62
0
  0
CIRCLE
  8
default
  6
CONTINUOUS
 10
72.558259
 20
269.964795
 40
0.553176
 39
0
 62
0
  0
CIRCLE
  8
default
  6
CONTINUOUS
 10
72.558259
 20
242.490384
 40
0.391155
 39
0
 62
0
  0
CIRCLE
  8
default
  6
CONTINUOUS
 10
84.820328
 20
242.490384
 40
0.368784
 39
0
 62
0
  0
CIRCLE
  8
default
  6
CONTINUOUS
 10
125.017788
 20
242.490384
 40
0.460980
 39
0
 62
0
  0
CIRCLE
  8
default
  6
CONTINUOUS
 10
125.017788
 20
269.964795
 40
0.412313
 39
0
 62
0
  0
CIRCLE
  8
default
  6
CONTINUOUS
 10
190.000000
 20
230.000000
 40
0.707107
 39
0
 62
0
  0
CIRCLE
  8
default
  6
CONTINUOUS
 10
190.000000
 20
225.000000
 40
0.707107
 39
0
 62
0
  0
CIRCLE
  8
default
  6
CONTINUOUS
 10
185.000000
 20
225.000000
 40
0.707107
 39
0
 62
0
  0
CIRCLE
  8
default
  6
CONTINUOUS
 10
190.000000
 20
220.000000
 40
0.707107
 39
0
 62
0
  0
CIRCLE
  8
default
  6
CONTINUOUS
 10
185.000000
 20
220.000000
 40
0.707107
 39
0
 62
0
  0
CIRCLE
  8
default
  6
CONTINUOUS
 10
185.000000
 20
215.000000
 40
0.707107
 39
0
 62
0
  0
CIRCLE
  8
default
  6
CONTINUOUS
 10
190.000000
 20
215.000000
 40
0.707107
 39
0
 62
0
  0
CIRCLE
  8
default
  6
CONTINUOUS
 10
185.000000
 20
210.000000
 40
0.707107
 39
0
 62
0
  0
CIRCLE
  8
default
  6
CONTINUOUS
 10
190.000000
 20
210.000000
 40
0.707107
 39
0
 62
0
  0
CIRCLE
  8
default
  6
CONTINUOUS
 10
190.000000
 20
205.000000
 40
0.707107
 39
0
 62
0
  0
CIRCLE
  8
default
  6
CONTINUOUS
 10
185.000000
 20
205.000000
 40
0.707107
 39
0
 62
0
  0
CIRCLE
  8
default
  6
CONTINUOUS
 10
185.000000
 20
200.000000
 40
0.707107
 39
0
 62
0
  0
CIRCLE
  8
default
  6
CONTINUOUS
 10
190.000000
 20
200.000000
 40
0.707107
 39
0
 62
0
  0
LINE
  8
default
  6
CONTINUOUS
 10
183.500000
 20
231.500000
 11
186.500000
 21
231.500000
 39
0
 62
0
  0
LINE
  8
default
  6
CONTINUOUS
 10
186.500000
 20
231.500000
 11
186.500000
 21
228.500000
 39
0
 62
0
  0
LINE
  8
default
  6
CONTINUOUS
 10
186.500000
 20
228.500000
 11
183.500000
 21
228.500000
 39
0
 62
0
  0
LINE
  8
default
  6
CONTINUOUS
 10
183.500000
 20
228.500000
 11
183.500000
 21
231.500000
 39
0
 62
0
  0
CIRCLE
  8
default
  6
CONTINUOUS
 10
85.000000
 20
180.000000
 40
0.500000
 39
0
 62
0
  0
CIRCLE
  8
default
  6
CONTINUOUS
 10
85.000000
 20
105.000000
 40
1.000000
 39
0
 62
0
  0
CIRCLE
  8
default
  6
CONTINUOUS
 10
140.000000
 20
105.000000
 40
1.000000
 39
0
 62
0
  0
CIRCLE
  8
default
  6
CONTINUOUS
 10
170.000000
 20
105.000000
 40
1.000000
 39
0
 62
0
  0
CIRCLE
  8
default
  6
CONTINUOUS
 10
140.000000
 20
140.000000
 40
1.000000
 39
0
 62
0
  0
CIRCLE
  8
default
  6
CONTINUOUS
 10
200.000000
 20
225.000000
 40
0.500000
 39
0
 62
0
  0
TEXT
  8
default
  6
CONTINUOUS
 10
5.000000
 20
15.000000
 40
4.000000
 50
0.000000
 72
0
  7
Normal#0.400000#2.400000
  1
A simple JTAG adapter (Wiggler)
 39
0
 62
0
  0
LINE
  8
default
  6
CONTINUOUS
 10
110.000000
 20
95.000000
 11
200.000000
 21
95.000000
 39
0
 62
0
  0
LINE
  8
default
  6
CONTINUOUS
 10
200.000000
 20
95.000000
 11
200.000000
 21
5.000000
 39
0
 62
0
  0
LINE
  8
default
  6
CONTINUOUS
 10
200.000000
 20
5.000000
 11
110.000000
 21
5.000000
 39
0
 62
0
  0
LINE
  8
default
  6
CONTINUOUS
 10
110.000000
 20
5.000000
 11
110.000000
 21
95.000000
 39
0
 62
0
  0
LINE
  8
default
  6
CONTINUOUS
 10
110.000000
 20
85.000000
 11
200.000000
 21
85.000000
 39
0
 62
0
  0
TEXT
  8
default
  6
CONTINUOUS
 10
136.125000
 20
86.625000
 40
6.000000
 50
0.000000
 72
0
  7
Normal#0.600000#3.600000
  1
Bill of material
 39
0
 62
0
  0
TEXT
  8
default
  6
CONTINUOUS
 10
75.000000
 20
280.000000
 40
5.000000
 50
0.000000
 72
1
  7
Normal#0.500000#3.000000
  1
4,7 uF
 39
0
 62
0
  0
TEXT
  8
default
  6
CONTINUOUS
 10
177.981618
 20
232.213235
 40
5.000000
 50
0.000000
 72
1
  7
Normal#0.500000#3.000000
  1
1
 39
0
 62
0
  0
TEXT
  8
default
  6
CONTINUOUS
 10
116.470588
 20
77.525735
 40
4.500000
 50
0.000000
 72
0
  7
Normal#0.450000#2.700000
  1
5  resistor   51 ohms
 39
0
 62
0
  0
TEXT
  8
default
  6
CONTINUOUS
 10
116.470588
 20
71.225735
 40
4.500000
 50
0.000000
 72
0
  7
Normal#0.450000#2.700000
  1
1  resistor   10K ohms
 39
0
 62
0
  0
TEXT
  8
default
  6
CONTINUOUS
 10
116.470588
 20
64.925735
 40
4.500000
 50
0.000000
 72
0
  7
Normal#0.450000#2.700000
  1
1  resistor   47K ohms
 39
0
 62
0
  0
TEXT
  8
default
  6
CONTINUOUS
 10
116.470588
 20
58.625735
 40
4.500000
 50
0.000000
 72
0
  7
Normal#0.450000#2.700000
  1
1  transistor BC 546
 39
0
 62
0
  0
TEXT
  8
default
  6
CONTINUOUS
 10
116.470588
 20
52.325735
 40
4.500000
 50
0.000000
 72
0
  7
Normal#0.450000#2.700000
  1
1  capacitor  200 nF
 39
0
 62
0
  0
TEXT
  8
default
  6
CONTINUOUS
 10
116.470588
 20
46.025735
 40
4.500000
 50
0.000000
 72
0
  7
Normal#0.450000#2.700000
  1
1  capacitor  4,7 µF, 16 V
 39
0
 62
0
  0
TEXT
  8
default
  6
CONTINUOUS
 10
116.470588
 20
39.725735
 40
4.500000
 50
0.000000
 72
0
  7
Normal#0.450000#2.700000
  1
1  IC         74 HCT 244
 39
0
 62
0
  0
TEXT
  8
default
  6
CONTINUOUS
 10
116.470588
 20
33.425735
 40
4.500000
 50
0.000000
 72
0
  7
Normal#0.450000#2.700000
  1
1  20 pins IC socket
 39
0
 62
0
  0
TEXT
  8
default
  6
CONTINUOUS
 10
116.470588
 20
27.125735
 40
4.500000
 50
0.000000
 72
0
  7
Normal#0.450000#2.700000
  1
2  14 pin header
 39
0
 62
0
  0
TEXT
  8
default
  6
CONTINUOUS
 10
116.470588
 20
20.825735
 40
4.500000
 50
0.000000
 72
0
  7
Normal#0.450000#2.700000
  1
1  SubD25 male plug
 39
0
 62
0
  0
TEXT
  8
default
  6
CONTINUOUS
 10
116.470588
 20
14.525735
 40
4.500000
 50
0.000000
 72
0
  7
Normal#0.450000#2.700000
  1
1  14 conductors ribbon cable
 39
0
 62
0
  0
TEXT
  8
default
  6
CONTINUOUS
 10
116.470588
 20
8.225735
 40
4.500000
 50
0.000000
 72
0
  7
Normal#0.450000#2.700000
  1
2  14 pins female IDC connectors
 39
0
 62
0
  0
POINT
  8
default
  6
CONTINUOUS
 10
20.000000
 20
235.000000
 39
0
 62
0
  0
POINT
  8
default
  6
CONTINUOUS
 10
20.000000
 20
225.000000
 39
0
 62
0
  0
POINT
  8
default
  6
CONTINUOUS
 10
20.000000
 20
215.000000
 39
0
 62
0
  0
POINT
  8
default
  6
CONTINUOUS
 10
20.000000
 20
205.000000
 39
0
 62
0
  0
POINT
  8
default
  6
CONTINUOUS
 10
20.000000
 20
195.000000
 39
0
 62
0
  0
POINT
  8
default
  6
CONTINUOUS
 10
20.000000
 20
185.000000
 39
0
 62
0
  0
POINT
  8
default
  6
CONTINUOUS
 10
20.000000
 20
175.000000
 39
0
 62
0
  0
POINT
  8
default
  6
CONTINUOUS
 10
20.000000
 20
165.000000
 39
0
 62
0
  0
POINT
  8
default
  6
CONTINUOUS
 10
20.000000
 20
155.000000
 39
0
 62
0
  0
POINT
  8
default
  6
CONTINUOUS
 10
20.000000
 20
145.000000
 39
0
 62
0
  0
POINT
  8
default
  6
CONTINUOUS
 10
20.000000
 20
135.000000
 39
0
 62
0
  0
POINT
  8
default
  6
CONTINUOUS
 10
20.000000
 20
125.000000
 39
0
 62
0
  0
POINT
  8
default
  6
CONTINUOUS
 10
20.000000
 20
115.000000
 39
0
 62
0
  0
POINT
  8
default
  6
CONTINUOUS
 10
15.000000
 20
230.000000
 39
0
 62
0
  0
POINT
  8
default
  6
CONTINUOUS
 10
15.000000
 20
220.000000
 39
0
 62
0
  0
POINT
  8
default
  6
CONTINUOUS
 10
15.000000
 20
210.000000
 39
0
 62
0
  0
POINT
  8
default
  6
CONTINUOUS
 10
15.000000
 20
200.000000
 39
0
 62
0
  0
POINT
  8
default
  6
CONTINUOUS
 10
15.000000
 20
190.000000
 39
0
 62
0
  0
POINT
  8
default
  6
CONTINUOUS
 10
15.000000
 20
180.000000
 39
0
 62
0
  0
POINT
  8
default
  6
CONTINUOUS
 10
15.000000
 20
170.000000
 39
0
 62
0
  0
POINT
  8
default
  6
CONTINUOUS
 10
15.000000
 20
160.000000
 39
0
 62
0
  0
POINT
  8
default
  6
CONTINUOUS
 10
15.000000
 20
150.000000
 39
0
 62
0
  0
POINT
  8
default
  6
CONTINUOUS
 10
15.000000
 20
140.000000
 39
0
 62
0
  0
POINT
  8
default
  6
CONTINUOUS
 10
15.000000
 20
130.000000
 39
0
 62
0
  0
LINE
  8
default
  6
CONTINUOUS
 10
25.000000
 20
245.000000
 11
25.000000
 21
105.000000
 39
0
 62
0
  0
LINE
  8
default
  6
CONTINUOUS
 10
25.000000
 20
105.000000
 11
10.000000
 21
120.000000
 39
0
 62
0
  0
LINE
  8
default
  6
CONTINUOUS
 10
10.000000
 20
120.000000
 11
10.000000
 21
230.000000
 39
0
 62
0
  0
LINE
  8
default
  6
CONTINUOUS
 10
10.000000
 20
230.000000
 11
25.000000
 21
245.000000
 39
0
 62
0
  0
POINT
  8
default
  6
CONTINUOUS
 10
15.000000
 20
120.000000
 39
0
 62
0
  0
TEXT
  8
default
  6
CONTINUOUS
 10
15.000000
 20
240.000000
 40
5.000000
 50
0.000000
 72
0
  7
Normal#0.500000#3.000000
  1
1
 39
0
 62
0
  0
TEXT
  8
default
  6
CONTINUOUS
 10
15.000000
 20
105.000000
 40
5.000000
 50
0.000000
 72
0
  7
Normal#0.500000#3.000000
  1
13
 39
0
 62
0
  0
TEXT
  8
default
  6
CONTINUOUS
 10
10.000000
 20
110.000000
 40
5.000000
 50
0.000000
 72
0
  7
Normal#0.500000#3.000000
  1
25
 39
0
 62
0
  0
TEXT
  8
default
  6
CONTINUOUS
 10
10.000000
 20
235.000000
 40
5.000000
 50
0.000000
 72
0
  7
Normal#0.500000#3.000000
  1
14
 39
0
 62
0
  0
LINE
  8
default
  6
CONTINUOUS
 10
15.000000
 20
120.000000
 11
5.000000
 21
120.000000
 39
0
 62
0
  0
LINE
  8
default
  6
CONTINUOUS
 10
15.000000
 20
130.000000
 11
5.000000
 21
130.000000
 39
0
 62
0
  0
LINE
  8
default
  6
CONTINUOUS
 10
15.000000
 20
140.000000
 11
5.000000
 21
140.000000
 39
0
 62
0
  0
LINE
  8
default
  6
CONTINUOUS
 10
15.000000
 20
150.000000
 11
5.000000
 21
150.000000
 39
0
 62
0
  0
LINE
  8
default
  6
CONTINUOUS
 10
15.000000
 20
160.000000
 11
5.000000
 21
160.000000
 39
0
 62
0
  0
LINE
  8
default
  6
CONTINUOUS
 10
15.000000
 20
170.000000
 11
5.000000
 21
170.000000
 39
0
 62
0
  0
LINE
  8
default
  6
CONTINUOUS
 10
15.000000
 20
180.000000
 11
5.000000
 21
180.000000
 39
0
 62
0
  0
LINE
  8
default
  6
CONTINUOUS
 10
15.000000
 20
190.000000
 11
5.000000
 21
190.000000
 39
0
 62
0
  0
LINE
  8
default
  6
CONTINUOUS
 10
5.000000
 20
190.000000
 11
5.000000
 21
100.000000
 39
0
 62
0
  0
LINE
  8
default
  6
CONTINUOUS
 10
5.000000
 20
100.000000
 11
85.000000
 21
100.000000
 39
0
 62
0
  0
LINE
  8
default
  6
CONTINUOUS
 10
85.000000
 20
100.000000
 11
85.000000
 21
105.000000
 39
0
 62
0
  0
LINE
  8
default
  6
CONTINUOUS
 10
85.000000
 20
105.000000
 11
200.000000
 21
105.000000
 39
0
 62
0
  0
LINE
  8
default
  6
CONTINUOUS
 10
20.000000
 20
225.000000
 11
35.000000
 21
225.000000
 39
0
 62
0
  0
LINE
  8
default
  6
CONTINUOUS
 10
35.000000
 20
225.000000
 11
35.000000
 21
140.000000
 39
0
 62
0
  0
LINE
  8
default
  6
CONTINUOUS
 10
35.000000
 20
140.000000
 11
50.000000
 21
140.000000
 39
0
 62
0
  0
LINE
  8
default
  6
CONTINUOUS
 10
20.000000
 20
135.000000
 11
45.000000
 21
135.000000
 39
0
 62
0
  0
LINE
  8
default
  6
CONTINUOUS
 10
45.000000
 20
135.000000
 11
45.000000
 21
155.000000
 39
0
 62
0
  0
LINE
  8
default
  6
CONTINUOUS
 10
20.000000
 20
205.000000
 11
90.000000
 21
205.000000
 39
0
 62
0
  0
LINE
  8
default
  6
CONTINUOUS
 10
20.000000
 20
215.000000
 11
45.000000
 21
215.000000
 39
0
 62
0
  0
LINE
  8
default
  6
CONTINUOUS
 10
45.000000
 20
215.000000
 11
45.000000
 21
220.000000
 39
0
 62
0
  0
LINE
  8
default
  6
CONTINUOUS
 10
45.000000
 20
220.000000
 11
45.000000
 21
220.500000
 39
0
 62
0
  0
LINE
  8
default
  6
CONTINUOUS
 10
20.000000
 20
195.000000
 11
50.000000
 21
195.000000
 39
0
 62
0
  0
LINE
  8
default
  6
CONTINUOUS
 10
50.000000
 20
195.000000
 11
50.000000
 21
235.000000
 39
0
 62
0
  0
LINE
  8
default
  6
CONTINUOUS
 10
50.000000
 20
235.000000
 11
90.000000
 21
235.000000
 39
0
 62
0
  0
CIRCLE
  8
default
  6
CONTINUOUS
 10
20.000000
 20
235.000000
 40
1.118034
 39
0
 62
0
  0
CIRCLE
  8
default
  6
CONTINUOUS
 10
15.000000
 20
230.000000
 40
1.118034
 39
0
 62
0
  0
CIRCLE
  8
default
  6
CONTINUOUS
 10
20.000000
 20
225.000000
 40
1.118034
 39
0
 62
0
  0
CIRCLE
  8
default
  6
CONTINUOUS
 10
15.000000
 20
220.000000
 40
1.000000
 39
0
 62
0
  0
CIRCLE
  8
default
  6
CONTINUOUS
 10
20.000000
 20
215.000000
 40
1.000000
 39
0
 62
0
  0
CIRCLE
  8
default
  6
CONTINUOUS
 10
15.000000
 20
210.000000
 40
1.000000
 39
0
 62
0
  0
CIRCLE
  8
default
  6
CONTINUOUS
 10
20.000000
 20
205.000000
 40
1.000000
 39
0
 62
0
  0
CIRCLE
  8
default
  6
CONTINUOUS
 10
15.000000
 20
200.000000
 40
1.000000
 39
0
 62
0
  0
CIRCLE
  8
default
  6
CONTINUOUS
 10
20.000000
 20
195.000000
 40
1.118034
 39
0
 62
0
  0
CIRCLE
  8
default
  6
CONTINUOUS
 10
15.000000
 20
190.000000
 40
1.000000
 39
0
 62
0
  0
CIRCLE
  8
default
  6
CONTINUOUS
 10
20.000000
 20
185.000000
 40
1.000000
 39
0
 62
0
  0
CIRCLE
  8
default
  6
CONTINUOUS
 10
15.000000
 20
180.000000
 40
1.000000
 39
0
 62
0
  0
CIRCLE
  8
default
  6
CONTINUOUS
 10
20.000000
 20
175.000000
 40
1.000000
 39
0
 62
0
  0
CIRCLE
  8
default
  6
CONTINUOUS
 10
15.000000
 20
170.000000
 40
1.000000
 39
0
 62
0
  0
CIRCLE
  8
default
  6
CONTINUOUS
 10
20.000000
 20
165.000000
 40
1.000000
 39
0
 62
0
  0
CIRCLE
  8
default
  6
CONTINUOUS
 10
15.000000
 20
160.000000
 40
1.118034
 39
0
 62
0
  0
CIRCLE
  8
default
  6
CONTINUOUS
 10
20.000000
 20
155.000000
 40
1.000000
 39
0
 62
0
  0
CIRCLE
  8
default
  6
CONTINUOUS
 10
15.000000
 20
150.000000
 40
1.000000
 39
0
 62
0
  0
CIRCLE
  8
default
  6
CONTINUOUS
 10
20.000000
 20
145.000000
 40
1.000000
 39
0
 62
0
  0
CIRCLE
  8
default
  6
CONTINUOUS
 10
15.000000
 20
140.000000
 40
1.118034
 39
0
 62
0
  0
CIRCLE
  8
default
  6
CONTINUOUS
 10
20.000000
 20
135.000000
 40
1.000000
 39
0
 62
0
  0
CIRCLE
  8
default
  6
CONTINUOUS
 10
15.000000
 20
130.000000
 40
1.000000
 39
0
 62
0
  0
CIRCLE
  8
default
  6
CONTINUOUS
 10
20.000000
 20
125.000000
 40
1.000000
 39
0
 62
0
  0
CIRCLE
  8
default
  6
CONTINUOUS
 10
15.000000
 20
120.000000
 40
1.118034
 39
0
 62
0
  0
CIRCLE
  8
default
  6
CONTINUOUS
 10
20.000000
 20
115.000000
 40
1.000000
 39
0
 62
0
  0
CIRCLE
  8
default
  6
CONTINUOUS
 10
5.000000
 20
180.000000
 40
0.500000
 39
0
 62
0
  0
CIRCLE
  8
default
  6
CONTINUOUS
 10
5.000000
 20
170.000000
 40
0.500000
 39
0
 62
0
  0
CIRCLE
  8
default
  6
CONTINUOUS
 10
5.000000
 20
160.000000
 40
0.500000
 39
0
 62
0
  0
CIRCLE
  8
default
  6
CONTINUOUS
 10
5.000000
 20
150.000000
 40
0.500000
 39
0
 62
0
  0
CIRCLE
  8
default
  6
CONTINUOUS
 10
5.000000
 20
140.000000
 40
0.500000
 39
0
 62
0
  0
CIRCLE
  8
default
  6
CONTINUOUS
 10
5.000000
 20
130.000000
 40
0.500000
 39
0
 62
0
  0
CIRCLE
  8
default
  6
CONTINUOUS
 10
5.000000
 20
120.000000
 40
0.500000
 39
0
 62
0
  0
ARC
  8
default
  6
CONTINUOUS
 10
15.000000
 20
50.000000
 40
10.000000
 50
0.000000
 51
180.000000
 39
0
 62
0
  0
LINE
  8
default
  6
CONTINUOUS
 10
5.000000
 20
50.000000
 11
25.000000
 21
50.000000
 39
0
 62
0
  0
LINE
  8
default
  6
CONTINUOUS
 10
10.000000
 20
55.000000
 11
5.000000
 21
40.000000
 39
0
 62
0
  0
LINE
  8
default
  6
CONTINUOUS
 10
15.000000
 20
55.000000
 11
15.000000
 21
40.000000
 39
0
 62
0
  0
LINE
  8
default
  6
CONTINUOUS
 10
20.000000
 20
55.000000
 11
25.000000
 21
40.000000
 39
0
 62
0
  0
TEXT
  8
default
  6
CONTINUOUS
 10
5.000000
 20
60.000000
 40
5.000000
 50
0.000000
 72
0
  7
Normal#0.500000#3.000000
  1
BC 546
 39
0
 62
0
  0
TEXT
  8
default
  6
CONTINUOUS
 10
5.000000
 20
30.000000
 40
5.000000
 50
0.000000
 72
0
  7
Normal#0.500000#3.000000
  1
C  B  E
 39
0
 62
0
  0
POINT
  8
default
  6
CONTINUOUS
 10
65.000000
 20
75.000000
 39
0
 62
0
  0
POINT
  8
default
  6
CONTINUOUS
 10
70.000000
 20
75.000000
 39
0
 62
0
  0
POINT
  8
default
  6
CONTINUOUS
 10
65.000000
 20
70.000000
 39
0
 62
0
  0
POINT
  8
default
  6
CONTINUOUS
 10
70.000000
 20
70.000000
 39
0
 62
0
  0
POINT
  8
default
  6
CONTINUOUS
 10
65.000000
 20
65.000000
 39
0
 62
0
  0
POINT
  8
default
  6
CONTINUOUS
 10
70.000000
 20
65.000000
 39
0
 62
0
  0
POINT
  8
default
  6
CONTINUOUS
 10
65.000000
 20
60.000000
 39
0
 62
0
  0
POINT
  8
default
  6
CONTINUOUS
 10
70.000000
 20
60.000000
 39
0
 62
0
  0
POINT
  8
default
  6
CONTINUOUS
 10
65.000000
 20
55.000000
 39
0
 62
0
  0
POINT
  8
default
  6
CONTINUOUS
 10
70.000000
 20
55.000000
 39
0
 62
0
  0
POINT
  8
default
  6
CONTINUOUS
 10
65.000000
 20
50.000000
 39
0
 62
0
  0
POINT
  8
default
  6
CONTINUOUS
 10
70.000000
 20
50.000000
 39
0
 62
0
  0
POINT
  8
default
  6
CONTINUOUS
 10
65.000000
 20
45.000000
 39
0
 62
0
  0
POINT
  8
default
  6
CONTINUOUS
 10
70.000000
 20
45.000000
 39
0
 62
0
  0
LINE
  8
default
  6
CONTINUOUS
 10
60.000000
 20
80.000000
 11
75.000000
 21
80.000000
 39
0
 62
0
  0
LINE
  8
default
  6
CONTINUOUS
 10
75.000000
 20
80.000000
 11
75.000000
 21
40.000000
 39
0
 62
0
  0
LINE
  8
default
  6
CONTINUOUS
 10
75.000000
 20
40.000000
 11
60.000000
 21
40.000000
 39
0
 62
0
  0
LINE
  8
default
  6
CONTINUOUS
 10
60.000000
 20
40.000000
 11
60.000000
 21
80.000000
 39
0
 62
0
  0
TEXT
  8
default
  6
CONTINUOUS
 10
70.000000
 20
90.000000
 40
5.000000
 50
0.000000
 72
1
  7
Normal#0.500000#3.000000
  1
JTAG
 39
0
 62
0
  0
TEXT
  8
default
  6
CONTINUOUS
 10
70.000000
 20
83.000000
 40
5.000000
 50
0.000000
 72
1
  7
Normal#0.500000#3.000000
  1
connector
 39
0
 62
0
  0
POINT
  8
default
  6
CONTINUOUS
 10
65.000000
 20
75.000000
 39
0
 62
0
  0
POINT
  8
default
  6
CONTINUOUS
 10
65.000000
 20
70.000000
 39
0
 62
0
  0
POINT
  8
default
  6
CONTINUOUS
 10
65.000000
 20
65.000000
 39
0
 62
0
  0
POINT
  8
default
  6
CONTINUOUS
 10
65.000000
 20
60.000000
 39
0
 62
0
  0
POINT
  8
default
  6
CONTINUOUS
 10
65.000000
 20
55.000000
 39
0
 62
0
  0
POINT
  8
default
  6
CONTINUOUS
 10
65.000000
 20
55.000000
 39
0
 62
0
  0
LINE
  8
default
  6
CONTINUOUS
 10
70.000000
 20
75.000000
 11
80.000000
 21
75.000000
 39
0
 62
0
  0
LINE
  8
default
  6
CONTINUOUS
 10
70.000000
 20
70.000000
 11
80.000000
 21
70.000000
 39
0
 62
0
  0
LINE
  8
default
  6
CONTINUOUS
 10
55.000000
 20
75.000000
 11
65.000000
 21
75.000000
 39
0
 62
0
  0
CIRCLE
  8
default
  6
CONTINUOUS
 10
70.000000
 20
75.000000
 40
0.707107
 39
0
 62
0
  0
CIRCLE
  8
default
  6
CONTINUOUS
 10
70.000000
 20
70.000000
 40
0.707107
 39
0
 62
0
  0
CIRCLE
  8
default
  6
CONTINUOUS
 10
65.000000
 20
70.000000
 40
0.707107
 39
0
 62
0
  0
CIRCLE
  8
default
  6
CONTINUOUS
 10
70.000000
 20
65.000000
 40
0.707107
 39
0
 62
0
  0
CIRCLE
  8
default
  6
CONTINUOUS
 10
65.000000
 20
65.000000
 40
0.707107
 39
0
 62
0
  0
CIRCLE
  8
default
  6
CONTINUOUS
 10
65.000000
 20
60.000000
 40
0.707107
 39
0
 62
0
  0
CIRCLE
  8
default
  6
CONTINUOUS
 10
70.000000
 20
60.000000
 40
0.707107
 39
0
 62
0
  0
CIRCLE
  8
default
  6
CONTINUOUS
 10
65.000000
 20
55.000000
 40
0.707107
 39
0
 62
0
  0
CIRCLE
  8
default
  6
CONTINUOUS
 10
70.000000
 20
55.000000
 40
0.707107
 39
0
 62
0
  0
CIRCLE
  8
default
  6
CONTINUOUS
 10
70.000000
 20
50.000000
 40
0.707107
 39
0
 62
0
  0
CIRCLE
  8
default
  6
CONTINUOUS
 10
65.000000
 20
50.000000
 40
0.707107
 39
0
 62
0
  0
CIRCLE
  8
default
  6
CONTINUOUS
 10
65.000000
 20
45.000000
 40
0.707107
 39
0
 62
0
  0
CIRCLE
  8
default
  6
CONTINUOUS
 10
70.000000
 20
45.000000
 40
0.707107
 39
0
 62
0
  0
LINE
  8
default
  6
CONTINUOUS
 10
63.500000
 20
76.500000
 11
66.500000
 21
76.500000
 39
0
 62
0
  0
LINE
  8
default
  6
CONTINUOUS
 10
66.500000
 20
76.500000
 11
66.500000
 21
73.500000
 39
0
 62
0
  0
LINE
  8
default
  6
CONTINUOUS
 10
66.500000
 20
73.500000
 11
63.500000
 21
73.500000
 39
0
 62
0
  0
LINE
  8
default
  6
CONTINUOUS
 10
63.500000
 20
73.500000
 11
63.500000
 21
76.500000
 39
0
 62
0
  0
TEXT
  8
default
  6
CONTINUOUS
 10
57.981618
 20
77.213235
 40
5.000000
 50
0.000000
 72
1
  7
Normal#0.500000#3.000000
  1
1
 39
0
 62
0
  0
LINE
  8
default
  6
CONTINUOUS
 10
70.000000
 20
65.000000
 11
80.000000
 21
65.000000
 39
0
 62
0
  0
LINE
  8
default
  6
CONTINUOUS
 10
70.000000
 20
60.000000
 11
80.000000
 21
60.000000
 39
0
 62
0
  0
LINE
  8
default
  6
CONTINUOUS
 10
70.000000
 20
55.000000
 11
80.000000
 21
55.000000
 39
0
 62
0
  0
LINE
  8
default
  6
CONTINUOUS
 10
70.000000
 20
50.000000
 11
80.000000
 21
50.000000
 39
0
 62
0
  0
LINE
  8
default
  6
CONTINUOUS
 10
70.000000
 20
45.000000
 11
80.000000
 21
45.000000
 39
0
 62
0
  0
LINE
  8
default
  6
CONTINUOUS
 10
55.000000
 20
70.000000
 11
65.000000
 21
70.000000
 39
0
 62
0
  0
LINE
  8
default
  6
CONTINUOUS
 10
65.000000
 20
65.000000
 11
55.000000
 21
65.000000
 39
0
 62
0
  0
LINE
  8
default
  6
CONTINUOUS
 10
65.000000
 20
60.000000
 11
55.000000
 21
60.000000
 39
0
 62
0
  0
LINE
  8
default
  6
CONTINUOUS
 10
65.000000
 20
55.000000
 11
55.000000
 21
55.000000
 39
0
 62
0
  0
LINE
  8
default
  6
CONTINUOUS
 10
65.000000
 20
50.000000
 11
55.000000
 21
50.000000
 39
0
 62
0
  0
LINE
  8
default
  6
CONTINUOUS
 10
65.000000
 20
45.000000
 11
55.000000
 21
45.000000
 39
0
 62
0
  0
TEXT
  8
default
  6
CONTINUOUS
 10
48.000000
 20
75.000000
 40
4.000000
 50
0.000000
 72
0
  7
Normal#0.400000#2.400000
  1
Vcc
 39
0
 62
0
  0
TEXT
  8
default
  6
CONTINUOUS
 10
81.000000
 20
75.000000
 40
4.000000
 50
0.000000
 72
0
  7
Normal#0.400000#2.400000
  1
GND
 39
0
 62
0
  0
TEXT
  8
default
  6
CONTINUOUS
 10
81.000000
 20
70.000000
 40
4.000000
 50
0.000000
 72
0
  7
Normal#0.400000#2.400000
  1
GND
 39
0
 62
0
  0
TEXT
  8
default
  6
CONTINUOUS
 10
43.000000
 20
70.000000
 40
4.000000
 50
0.000000
 72
0
  7
Normal#0.400000#2.400000
  1
TRST
 39
0
 62
0
  0
TEXT
  8
default
  6
CONTINUOUS
 10
48.000000
 20
65.000000
 40
4.000000
 50
0.000000
 72
0
  7
Normal#0.400000#2.400000
  1
TDI
 39
0
 62
0
  0
TEXT
  8
default
  6
CONTINUOUS
 10
46.000000
 20
60.000000
 40
4.000000
 50
0.000000
 72
0
  7
Normal#0.400000#2.400000
  1
TMS
 39
0
 62
0
  0
TEXT
  8
default
  6
CONTINUOUS
 10
47.000000
 20
55.000000
 40
4.000000
 50
0.000000
 72
0
  7
Normal#0.400000#2.400000
  1
TCK
 39
0
 62
0
  0
TEXT
  8
default
  6
CONTINUOUS
 10
46.000000
 20
50.000000
 40
4.000000
 50
0.000000
 72
0
  7
Normal#0.400000#2.400000
  1
TDO
 39
0
 62
0
  0
TEXT
  8
default
  6
CONTINUOUS
 10
81.000000
 20
50.000000
 40
4.000000
 50
0.000000
 72
0
  7
Normal#0.400000#2.400000
  1
RESET
 39
0
 62
0
  0
LINE
  8
default
  6
CONTINUOUS
 10
54.500000
 20
74.500000
 11
42.500000
 21
74.500000
 39
0
 62
0
  0
LINE
  8
default
  6
CONTINUOUS
 10
80.500000
 20
54.500000
 11
94.000000
 21
54.500000
 39
0
 62
0
  0
ENDSEC
  0
EOF
